ConnexionConnexionInscription
E A D G B E
157 connectés Aller à Slappyto Basse

Composition - Poppyxies - Part 6

Publié par le
31/03/2006
24192 vues
Débutant 3
Vitesse NormaleNormal speed
|--0-------------0--------|----------0-----------|
|-------12----------------|-------------9--------|
|---------------------11--|----11----------------|
|-------------9-----------|----------------------|
|-------------------------|----------------------|
|-------------------------|----------------------|


|--0-------------0--------|---------------0------|
|-------12----------------|----10----9-----------|
|---------------------11--|----------------------|
|-------------9-----------|----------------------|
|-------------------------|----------------------|
|-------------------------|----------------------|
Une mélodie plus complète avec corde de Mi à vide. Le tout est à jouer en laissant résonner chaque note le plus longtemps possible. On constate que la mesure 1 et 3 sont similaires alors que la 2 et 4 sont différentes. Le débit de note est relativement lent ce qui est plus judicieux pour une mémorisation rapide.

0 Commentaires : réagissez !

1 2 3 4 5
0 notes
Aucun commentaire !

En Live

Biwulf a commenté le wall de bigyouth il y a 3 jours