ConnexionConnexionInscription
E A D G B E
176 connectés Aller à Slappyto Basse

Composition - Poppyxies - Part 7

Publié par le
31/03/2006
33556 vues
Débutant 3
Vitesse NormaleNormal speed
|--0-0-0-0-0-0-0-0-0-0-0-0-0-0-0-0-|
|--0-0-0-0-0-0-0-0-0-0-0-0-0-0-0-0-|
|--4-4-4-4-4-4-4-4-4-4-4-4-4-4-8-8-|
|--2-2-2-2-2-2-2-2-2-2-2-2-2-2-6-6-|
|----------------------------------|
|----------------------------------|


|0-0-0-0-0-0-0-0-0-0-0-0-0-0-0-0-|
|0-0-0-0-0-0-0-0-0-0-0-0-0-0-0-0-|
|8-8-8-8-8-8-8-8-8-8-8-8-8-8-8-8-|
|6-6-6-6-6-6-6-6-6-6-6-6-6-6-6-6-|
|--------------------------------|
|--------------------------------|


--0-0-0-0-0-0-0-0-0-0-0-0-0-0-0-0-|
--0-0-0-0-0-0-0-0-0-0-0-0-0-0-0-0-|
--8-8-8-8-8-8-8-8-8-8-8-8-8-8-8-8-|
--9-9-9-9-9-9-9-9-9-9-9-9-9-9-9-6-|
----------------------------------|
----------------------------------|


|0-0-0-0-0-0-0-0-0-0-0-0-0-0-0-0-|
|0-0-0-0-0-0-0-0-0-0-0-0-0-0-0-0-|
|9-9-9-9-9-9-9-9-9-9-9-9-9-9-9-9-|
|7-7-7-7-7-7-7-7-7-7-7-7-7-7-7-7-|
|--------------------------------|
|--------------------------------|
Dans cet exemple nous allons à présent jouer une rythmique à la guitare folk. Le débit sera en double croche. Nous allons utiliser les cordes à vide de Si et Mi aiguë pour cette rythmique. Nous changerons nos accords sur les cordes de Ré et Sol. Les cordes à vide enrichiront les accords. Voici la grille : Em - C#m9 - G#m 6b - Asus2.

0 Commentaires : réagissez !

1 2 3 4 5
0 notes
Aucun commentaire !

En Live

Biwulf a commenté le wall de bigyouth il y a 3 heures