ConnexionConnexionInscription
E A D G B E
126 connectés Aller à Slappyto Basse

Composition - Poppyxies - Part 8

Publié par le
31/03/2006
60192 vues
Débutant 3
Vitesse NormaleNormal speed
|-----------------------------|
|--------9-11-9---------------|
|---------------11-----x--11--|
|--0---0----------------------|


|-----------------------------|--------4-6-4-------------|
|--------9-11-9---------------|--------------6-----------|
|---------------11-----x--11--|--------------------------|
|--9---9----------------------|--4---4-------------x--4--|


|--------------------------|-------------------||
|--------6-7-6-------------|-------------------||
|--------------7-----x--7--|-------------------||
|--5---5-------------------|--0----------------||
Deux nouveaux éléments. Ici le charleston du batteur n’a plus un débit de croche mais un débit à la double croche. La basse est plus mélodique et joue un motif rythmique répétitif. Avec les guitares acoustiques l’ensemble sonne très pop.

0 Commentaires : réagissez !

1 2 3 4 5
0 notes
Aucun commentaire !

En Live

Vrock81 et 36seb ont commenté le topic [Association de mots] de Arnold Layne il y a 2 heures
Vrock81 a voté pour le message de 36seb il y a 2 heures